5ちゃんねる ★スマホ版★ ■掲示板に戻る■ 全部 1- 最新50  

■ このスレッドは過去ログ倉庫に格納されています

【COCK ROACH】黒虫芸術vol.12【無限マイナス】

1 :無名さん:2009/12/13(日) 15:51:45
【COCK ROACH】[公式HP]
http://cockroach.jp/

【me-al art】[公式HP]
http://www5e.biglobe.ne.jp/~me-alart/

【無限マイナス】[公式BLOG]
http://blog.goo.ne.jp/mugenminus/

【博士と蟋蟀】[公式HP]
http://www.myspace.com/hakasetokorogi

【黒虫芸術】[公式MySpace]
http://www.myspace.com/kuromushigeijutsu
フレンドから各バンドへ

>>2
過去スレ

2 :無名さん:2009/12/13(日) 15:52:29
過去スレ
【COCK ROACH】黒虫芸術vol.1【me-al art】
ttp://music4.2ch.net/test/read.cgi/minor/1087073367/
【COCK ROACH】黒虫芸術vol.2【me-al art】
ttp://music4.2ch.net/test/read.cgi/minor/1109600026/
【COCK ROACH】黒虫芸術vol.3【me-al art】
ttp://music4.2ch.net/test/read.cgi/minor/1134094218/
【COCK ROACH】黒虫芸術vol.4【me-al art】
ttp://music6.2ch.net/test/read.cgi/minor/1153406484/
【COCK ROACH】黒虫芸術vol.5【me-al art】
ttp://music8.2ch.net/test/read.cgi/minor/1166527041/
【COCK ROACH】黒虫芸術vol.6【me-al art】
ttp://music8.2ch.net/test/read.cgi/minor/1180968835/
【COCK ROACH】黒虫芸術vol.7【me-al art】
ttp://music8.2ch.net/test/read.cgi/minor/1196245334/
【COCK ROACH】黒虫芸術vol.8【me-al art】
ttp://mamono.2ch.net/test/read.cgi/minor/1209858539/
【COCK ROACH】黒虫芸術vol.9【me-al art】
http://mamono.2ch.net/test/read.cgi/minor/1226380123/
【COCK ROACH】黒虫芸術vol.10【me-al art】
http://anchorage.2ch.net/test/read.cgi/minor/1234059355/
【COCK ROACH】黒虫芸術vol.11【無限マイナス】
http://anchorage.2ch.net/test/read.cgi/minor/1249272873/

3 :無名さん:2009/12/13(日) 21:02:24
>>1
雲の如くに乙

4 :無名さん:2009/12/13(日) 23:16:33
乙降れば双方

5 :無名さん:2009/12/14(月) 00:15:01
>>1
乙の乙と乙の乙

6 :無名さん:2009/12/14(月) 03:11:13
この乙よ、この乙よ、この乙よ
生き埋めに乙となり

7 :無名さん:2009/12/14(月) 13:01:57
乙を終え、1000に進め

8 :無名さん:2009/12/14(月) 18:26:44
あぁぁざやかにいぃぃ乙ぅぅぅ

9 :無名さん:2009/12/14(月) 19:49:48
音 共 乙。

10 :無名さん:2009/12/14(月) 20:17:40
孔乙の唄

11 :無名さん:2009/12/14(月) 21:00:56
ニコにTITTYあるよ

12 :無名さん:2009/12/14(月) 22:25:09
今ニコニコでテテー聴いてみたけど
かなり独特だな〜
ジャンル的にパンク?

13 :無名さん:2009/12/14(月) 23:38:20
今さらTITTYか
隠し忘れた 銅貨を笑われ
何も知らず空回る〜

14 :無名さん:2009/12/15(火) 03:40:29
>>6何の歌詞だっけそれ
>>11どのアルバムの曲?
それとも映像?
今、パソコン修理に出してて見れないから教えて

15 :無名さん:2009/12/15(火) 04:19:03
>>14
スピードボールベイビーっていうアルバム

16 :無名さん:2009/12/15(火) 05:14:39
アルバム全部だよ
ふざけた野郎だ

17 :無名さん:2009/12/15(火) 10:18:15
スピードボールベイビーって同名バンドのアルバムじゃなかったんだ


18 :無名さん:2009/12/15(火) 10:28:17
教えない方が良かったかな?

19 :無名さん:2009/12/15(火) 11:52:12
スピードボールベイビーないじゃん

20 :無名さん:2009/12/15(火) 12:29:27
ていうか12スレ目なんてたてなければよかったのに

21 :無名さん:2009/12/16(水) 02:17:29
まあまあせっかく1が立ててくれたんだし

乙してあげようじゃない

22 :無名さん:2009/12/16(水) 20:21:57
>>14 1stに入ってる 蜘蛛と蛙と消えない銅貨 だよ

23 :無名さん:2009/12/17(木) 21:01:46
クリスマスに合いそうなコックローチの曲って何かあるでしょうか?

24 :無名さん:2009/12/18(金) 03:00:16
絵画の女

25 :無名さん:2009/12/18(金) 18:08:21
そんなのなくね?どの曲も全く結びつかない

26 :無名さん:2009/12/19(土) 21:19:00
バックホーンの「羽根」なら昨日歌った。一応クリスマスソング。

27 :無名さん:2009/12/21(月) 16:37:47
来年はシングルの一つでも出して欲しい罠

28 :無名さん:2009/12/21(月) 16:58:25
え、バクホンが?

29 :無名さん:2009/12/21(月) 18:35:17
無限だろJK

30 :無名さん:2009/12/21(月) 22:15:10
TITTYって初めて聞いたんだが、TUB RINGと似てるね

31 :無名さん:2009/12/24(木) 19:18:21
今日は白い新世界を聴いて寝るお
(´・ω・`)

32 :無名さん:2009/12/24(木) 23:45:29
me-alさんのアルバムお願いします

33 :無名さん:2010/01/04(月) 23:48:37
絵画の女の弾き方が全然分からん
誰かコピーしてくれ……

34 :無名さん:2010/01/05(火) 12:04:04
てす

35 :無名さん:2010/01/05(火) 12:07:01
最近は青く丸い〜ばっかり聴いてたけど、>>33のレスみて赤き生命欲聴いてる
やっぱいいな

36 :無名さん:2010/01/06(水) 00:02:26
パーフェクトワールドってどうなん?
どうも今までより明るめ(?)らしいってことで手を出すのを躊躇してるんだが

37 :無名さん:2010/01/06(水) 02:23:04
>>33
DVDのライヴ映像見ろ

COCKはCDのが聞き取りにくいな

38 :無名さん:2010/01/06(水) 12:06:46
>>37
その手があったか!!
いい機会だしDVD買うかな

39 :無名さん:2010/01/08(金) 02:48:17
>>38
うむ
俺が耳コピする場合 ライヴ映像7 CD音源3 くらいを参考に耳コピしてる

40 :無名さん:2010/01/09(土) 23:18:02
博士と蟋蟀って評判良くないけど、久しぶりに聞いてみたらかなり良かった
持ってるけど聞いてない奴損してるぞ

41 :無名さん:2010/01/09(土) 23:39:42
普通に持ってて普通に聴いてる俺が最得

ただーこのーよぞーらをーとーぶーたーめーだーけにー
の所で鳥肌が立つけど、サビは意外と普通

42 :無名さん:2010/01/10(日) 00:03:32
通しで聞いてると大体ヴォーカルが音程なしで進んでくのに、
Monochrome Butterflyでいきなり普通に歌いだすのが良いよな
モノクロの世界にいきなり色がついたみたい

43 :無名さん:2010/01/15(金) 22:25:58
無限どうしたの?

44 :無名さん:2010/01/15(金) 22:32:41
http://www.asahi.com/national/update/0115/TKY201001150194.html
たいーほされたって

45 :無名さん:2010/01/15(金) 22:38:30
名前があがっておるけど
http://www.kahoku.co.jp/news/2010/01/20100115t73037.htm

46 :無名さん:2010/01/15(金) 23:01:24
まじだ、これ解散か?

47 :無名さん:2010/01/15(金) 23:02:03
まじか・・・

48 :無名さん:2010/01/15(金) 23:08:35
おいおいおいおいおい

49 :無名さん:2010/01/15(金) 23:08:56
お詫びとお知らせ
2010-01-15 21:39:24/無限マイナス
急なお知らせで大変申し訳ございません。


この度、無限マイナスメンバーの不祥事の為

■1月17日(日)新宿LOFT公演と

■1月30日(土)高崎club FLEEZ公演を

急遽キャンセルさせて頂く運びとなりました。

ライブを楽しみにして頂いておりました皆様には

多大なるご迷惑をおかけします事を、

謹んで深くお詫び申し上げます。



詳しくは改めて当ブログにてお知らせ致しますので、

ご迷惑をおかけ致しますが少々お待ち下さいます様、

重ねてお詫び申し上げます。

【無限スタッフ】


50 :無名さん:2010/01/15(金) 23:19:12
何やってくれちゃってんだよ
Gの頃からそうだ 俺の好きな人たちを困らせやがって

51 :無名さん:2010/01/15(金) 23:20:57
なんてこった
こういう時ってアルバム販売中止になったりするのかな?
今のうちに買っといたほうがいい?

52 :無名さん:2010/01/15(金) 23:24:01
発売中止にはならないんじゃない?
でもまじでどうなるんだろう…

53 :無名さん:2010/01/15(金) 23:24:24
自分が聴きたいなら買えよ

54 :無名さん:2010/01/15(金) 23:58:41
新しい話題がこんな内容だなんて…なんてこったい

55 :無名さん:2010/01/15(金) 23:59:13
Gの時は何をやってしまったんですか?

56 :無名さん:2010/01/15(金) 23:59:35
>>50
>2000年、EMIミュージック・ジャパンよりメジャーデビューするが、
>メンバーの不祥事・契約問題・所属会社の倒産などにより一時活動休止。

G-FREAK FACTORYのwiki見たんだが、これまさか彼が絡んでたりするの?

57 :無名さん:2010/01/16(土) 16:55:08
解散発表…

58 :無名さん:2010/01/16(土) 17:10:22
マジかよ・・・

59 :無名さん:2010/01/16(土) 17:15:13
ショックだ

60 :無名さん:2010/01/16(土) 18:40:48
考えれば、このまま空き缶投げられながらライブやる事も無いだろう
(誰もしないと思うだろうけど、バンドやる人間にとっては最も恐ろしい事)

当分は出しても蟋蟀の方かもしれないけど、
またユルくて不思議な世界の音楽もやってほしい

61 :無名さん:2010/01/16(土) 22:02:31
なんて言うか、無限マイナスが黒虫芸術のアーティストだったのが不幸中の幸いか?
無限マイナスが解散してもまたなんかやってくれそうだから

62 :無名さん:2010/01/16(土) 23:34:53
本当に悲しい

63 :無名さん:2010/01/17(日) 00:13:41
19億5千万円って恐ろしいな

アルバイトの取り分は雀の涙なんだろうけど
いくらもらってたのかとか、なんか色々しょーもない事考えてしまうわ

64 :無名さん:2010/01/17(日) 00:56:53
メンバーは、こういう仕事を前川がしてたこと知ってたはずだよね?
誰も止めなかったのかね・・音楽だけで食べていけないのは分かるけど
出会い系の仕事しなくても・・・切ないなぁ

65 :無名さん:2010/01/17(日) 14:28:30
>>64
知ってて一緒にやっていけるような音楽か?
知らなかっただろうよ…

66 :無名さん:2010/01/17(日) 17:33:54
バンドマンでサクラのバイトしてるやつはかなりたくさんいるけどね
たまたま悪い所でひっぱられちゃったんだろうね

67 :無名さん:2010/01/17(日) 20:13:04
犯罪は犯罪だけど、殺人とかじゃなくてよかったって思っちゃう俺は不謹慎かな

博士と蟋蟀はどうなっちゃうんだろうか

68 :無名さん:2010/01/17(日) 21:24:20
無限以外のプロジェクトも全て停止的な事が書いてあったような

69 :無名さん:2010/01/17(日) 21:41:03
>>67
確かに
被害者には悪いが、出会い系の被害においては
ある意味自業自得の面も否めないしな
それでも犯罪は犯罪だし罪が軽いわけではないが
殺人とかじゃなくてよかったって気持ちはわかる

70 :無名さん:2010/01/17(日) 22:17:29
改めてwebで調べてみようと思ったけど
g-freakに関しての情報が全然ないな

藪をつついたら大蛇が出てきそうな悪寒

71 :無名さん:2010/01/17(日) 22:57:15
前川さんも適当な気持ちで音楽やってたって訳ではないと思うんだよなぁ
個展で会ったりライブ観たりしてる人は分かると思うけど本当に一生懸命な人だったもん

72 :無名さん:2010/01/17(日) 23:51:49
無限マイナスは大好きだけど、前川さんのどこが一生懸命な演奏なんだよ。
テクニック云々じゃなくてもっと致命的な問題があったぞ。

73 :無名さん:2010/01/18(月) 00:11:03
くわしく

74 :無名さん:2010/01/18(月) 02:31:02
ああ…なんてこったい
こんなニュース知りたくなかった…

遠藤氏のブログも見てきたけど…言葉が出てこねぇ

75 :無名さん:2010/01/18(月) 14:00:42
まぁ前川はある程度関わると好き嫌い分かれるタイプの人間だわな
昔から個人的にダメだったわ 無限の音楽は大好きだけど
今回の件は正直運が悪かった 捕まる前例なんて聞いたことなかったわ

76 :無名さん:2010/01/18(月) 16:46:57
>>72 いや、演奏が一生懸命とは言ってないんだけど?

77 :無名さん:2010/01/18(月) 17:44:33
一枚目のアルバムが出たときに友達が自分のブログに聴いた感想を書いてたんだけど
「聴いてくれてどうもありがとう」ってコメントが前川さん本人から入ってて驚いてたな
会った事無い人でもネットとかで買ったって人をみかけたら、ああやってきちんとお礼言ってるのかな、って関心したもんだけど

とにかくあの楽しそうなライブが二度と観れないってのは残念すぎる・・・

78 :無名さん:2010/01/18(月) 19:12:00
無限マイナスのライブに参加したのは、数回しかないけれど
ほのぼのとしたなかで演奏を聴けて、感動した。
本当にメンバー全員が音楽が好きなんだって思ったよ。

ちょうど、予定が空いて久しぶりに無限マイナスのライブが観れる!
と思ってたのに……。

79 :無名さん:2010/01/19(火) 01:09:11
前川さんて既婚じゃなかった?

80 :無名さん:2010/01/19(火) 05:14:20
ブログ荒れてるなー無限マイナスファンじゃない人は聞きつけたんだろうか

81 :無名さん:2010/01/19(火) 05:15:38
ファンじゃない人はどこで聞きつけたんだろうか

の間違い

82 :無名さん:2010/01/19(火) 07:41:55
ただ煽りたいだけなヤツが間違いなくいるよな
極端なのになると「ファンの皆様」とか言ってたり
もしかしたら事件の被害者もいるかも

83 :無名さん:2010/01/19(火) 11:25:47
今回の事件で捕まった11人の名前でググるとヒットするのが前川さんくらいなんじゃないかな
煽りたい奴らからしたらいいカモだよな…
2ちゃんでもこの事件のスレできてるし、他にも出会い系詐欺を取り上げるサイトがあって
そこでもそこのコメントで「前川ってこいつじゃね」みたいな感じで無限のオフィシャルブログのURLが上がってた

前川さんが悪く言われるのは仕方ないと思うけど無限のメンバーやファンまで悪く言われるのは許せないな

84 :無名さん:2010/01/19(火) 11:28:30
でもそれが世の中だよ

85 :無名さん:2010/01/19(火) 11:42:01
仁平さん正直だな・・・本当にあの人はすごいよ


86 :無名さん:2010/01/19(火) 14:10:30
荒れてないだろ 煽ってるヤツはいるが周りは冷静だ このままならすぐコメント欄も落ち着くだろうよ

87 :無名さん:2010/01/19(火) 15:35:37
煽ってる奴らはν速の餓鬼かなんかか
まあすぐに飽きてこなくなるさ

88 :無名さん:2010/01/19(火) 15:48:56
もう買えなくなるんじゃないかと思ってずっと買えてなかったパーフェクトワールド買った。

でも残念だ…

89 :無名さん:2010/01/19(火) 16:39:43
>>88
よう俺

90 :無名さん:2010/01/22(金) 13:08:46
今回のこと知って、無限解散は悲しいけど
コックや無限って音楽性がああいう音楽性だから
解散発表以上に仁平さんたちが知ってたのか
とかってことでモヤモヤしてたけど
やっぱり仁平さんは仁平さんだね、
辛いだろうに、心中と真実を書いてくれてスッキリした

やっぱり変わりなく無限を好きだ

メンバーはあまり自身を責めないで欲しいね
罪は罪だけど「サクラ」ですぐ逮捕されると思う人は
あまりいなかっただろうし、
「サクラで働いている」ときいて
すぐに叱れる人ってなかなかいないと思う

91 :無名さん:2010/01/22(金) 23:28:34
仁平さん大人だなぁ
本当にバンドやファンを大切にしてるのがわかるし

92 :無名さん:2010/01/23(土) 02:08:18
皆さん差し入れです

つ ジャムパン カルピス ポンジュース

93 :無名さん:2010/01/23(土) 10:54:57
せめて最後にもう一度観たい…

せめて、これだけ望んでは駄目だろうか…

94 :無名さん:2010/01/23(土) 12:46:28
改めて、仁平さんのファンでよかったと思ったな俺は。

95 :無名さん:2010/01/23(土) 22:35:16
仁平さん、頼むから今回のことで音楽を辞めないでほしい
博士と蟋蟀もあるし、もっと沢山いい曲を作り続けてくれ

96 :無名さん:2010/01/23(土) 23:08:38
なんで過去記事コメント消すんだ
せっかく書いた俺のがなくなってんじゃん


97 :無名さん:2010/01/24(日) 01:00:22
>>96

98 :無名さん:2010/01/24(日) 01:01:41
ごめん上間違った・・
>>96
サーバー側の保存期間が過ぎたから
徐々に消去されてるんじゃなくて?
意図的に消されてんの?

99 :無名さん:2010/01/24(日) 13:36:13
過去の記事は全て消えたよね・・・

100 :無名さん:2010/01/25(月) 13:14:31
>>98
あんなパッタリと今回の事件と
関係ない記事がなくなるなんて
意図的に他ならない

アナダブレインマスニケーションだっけ
もう発表されることはなさそうだね…
最後まで読みたかったなー

101 :無名さん:2010/01/25(月) 18:01:44
まぁ無限はこんな終わり方なんだから仕方ないでしょ
前川が出てきてしばらくしたらブログも閉鎖なんだろうね

102 :無名さん:2010/01/26(火) 18:47:54
こんな流れなのにすみません。。
孔子とカニバのTABが消えてしまったので、良ければもう一度お願いできませんかm(__)m

103 :無名さん:2010/01/26(火) 20:13:30
耳コピしろ

104 :無名さん:2010/01/26(火) 23:42:10
孔子の唄なら保存してあるけど、自分でコピーしたワケじゃないから貼るのはちょっと気が引けるんだよなー

孔子の唄はサビは基本パワーコードだし、ソロもゆっくりだからコピーするのは難しくない
イントロはブリッジミュートで1〜3弦使う

105 :無名さん:2010/01/27(水) 10:32:23
せっかく耳コピの話題になったので、ランヒェイのイントロ投下

1|-------------0--------------------------
2|---3----3----3--------------------------
3|---0----2----2---------2---------2------
4|---2----0----0----2----2----2----2------
5|---3----3----3----2----2----2----2------
6|----------------------------------------

コードチェンジのタイミングとかストロークのパターンは各自でやってね
ランヒェイは基本CとEmとGとDで弾けると思う
一回目のサビ終了後のとこは分からないけど

106 :105:2010/01/27(水) 10:33:39
TAB修正

1|-------------0----0----0----0----0------
2|---3----3----3----0----0----0----0------
3|---0----2----2----0----2----0----2------
4|---2----0----0----2----2----2----2------
5|---3----3----3----2----2----2----2------
6|----------------------------------------


107 :無名さん:2010/01/27(水) 13:00:11
てかカニバとか孔子の唄の耳コピあったんだ
保存したかった

108 :無名さん:2010/01/27(水) 17:00:10
蝶が一匹のサビの部分のベースってどう弾いてるか教えてください…
あそこ他のパートに埋もれてて聞き取りづらい…

109 :無名さん:2010/01/28(木) 22:30:24
やっと規制解除
・・・になってももう無限はいないのね
ブワッ(´;ω;`)

110 :無名さん:2010/01/28(木) 23:32:49
俺も規制解除
孔子とカニバうpしたの俺だけどカニバ修正したいな

鴉葬と触覚も耳コピしたがまだイマイチ

111 :無名さん:2010/01/29(金) 00:03:36
>>110
おお!前スレの時からTAB待ってたんだぜ

今赤道歩行とユリイカをコピーしてるんだけど、終わったら貼ろうかな
この様子なら需要あるよな?

112 :無名さん:2010/01/30(土) 00:26:47
>>111
そんなこと言われちゃうなら頑張っちゃうぞ

そしてもちろん需要あるw

TABだけに限らず音作り話したいんだが当時の足下知ってるやついる?

113 :無名さん:2010/01/30(土) 07:58:34
赤き生命欲までならTAB譜あるわ
足元も分かる

114 :無名さん:2010/01/30(土) 08:43:01
おお
俺も今原子爆弾耳コピってんだよね
下手だけど出来次第俺もうpするわw

なんか虫虫は完成しそうな勢いだね

115 :111:2010/01/30(土) 12:36:40
赤道歩行コピったから貼る

●イントロ

1|---0----3---
2|---0----3---
3|---2----5---
4|---2----5---
5|---0----3---
6|---0----3---

このコードで、アコギは全体をストローク、エレキは高音弦中心(多分1〜3か1〜4弦あたり)で鳴らす
アコギは一回ジャラーンと鳴らすだけで、あとはエレキ担当

●Aメロ

イントロと同じコードで、高音弦中心でカッティング
ここは多分エレキ

●Bメロ

コードはF→Amで、
最後だけF→Am→G
ここも多分エレキか?

116 :無名さん:2010/01/30(土) 12:37:24
●ソロ
エレキ担当

1|-----------12-------------------------------------12--------------------
2|----------------12-------10---12-----------------------12-------10---12-
3|-------9-------------------------------------9--------------------------
4|--10-------------------------------------10-----------------------------
5|------------------------------------------------------------------------
6|------------------------------------------------------------------------

1|----------------------------------------------------------------------------
2|---------------------------12-----------------------------------------------
3|--------9--10----9--12---------12-----10---9-----------------------9--------
4|--12------------------------------------------12---------10---12---------12-
5|----------------------------------------------------------------------------
6|----------------------------------------------------------------------------

1|-----------------------------------------12------------------------------------12-------------------
2|----------------------------------------------12-------10---12----------------------12-------10-----
3|-------9--10----9--------------------9-------------------------------------9----------------------9-
4|--12---------------12-----------10------------------------------------10----------------------------
5|----------------------------------------------------------------------------------------------------
6|----------------------------------------------------------------------------------------------------


117 :無名さん:2010/01/30(土) 12:38:10
ソロ続き
1|--------------------------------------------------------------------------------------------------------
2|-----------------------------------------------------13---12--------------------------------------------
3|--9--------------12--------10---------9----10---12--------------12-----10---9---------------------------
4|-------12----10--------10-------10----------------------------------------------12-------10--9----9--12-
5|--------------------------------------------------------------------------------------------------------
6|--------------------------------------------------------------------------------------------------------



ソロの部分のアコギのコード
これをジャラーンと鳴らす

1|---0----3----3----1---
2|---0----3----3----1---
3|---2----5----5----2---
4|---2----5----5----3---
5|---0----3----3----3---
6|---0----3----3----1---

118 :無名さん:2010/01/30(土) 12:41:03
●サビ前

アコギのコード

1|--0----3----2----0----3---
2|--0----3----3----1----3---
3|--2----5----2----2----4---
4|--2----5----0----3----5---
5|--0----3----0----0----5---
6|--0----3----0----0----3---

一応全部の弦に数字ふったけど、全部鳴らしてるってことは無いはず
適当に省略して弾いた方がいいと思う

エレキのアルペジオ

1|----------------------------------------------------------------------------------
2|---1-----------1-----------3--------------1------0------1-----------1-------------
3|------2-----2-----0-----0-----0-----0----------------------2-----2-----0-----0----
4|---------2-----------2-----------4----------------------------2-----------2-------
5|----------------------------------------------------------------------------------
6|----------------------------------------------------------------------------------

1|------------------------------
2|--1-----------1---------------
3|-----2-----2-----0-----0----7-
4|--------2-----------2-------7-
5|----------------------------5-
6|------------------------------

119 :無名さん:2010/01/30(土) 12:41:54
あとはアコギで上にあるやつと、
エレキで以下のコード

1|-------------------------------
2|-------------------------------
3|---2----5----7----5----5-------
4|---2----5----7----5----5-------
5|---0----3----5----3----2-------
6|-------------------------------
3弦の音は無くてもいいかも

サビ最後は面倒だから省略したけど、ここに貼ったコードとかパワーコードでいけるはず


アウトロはイントロと同じで、
動くとこは
1|------------12-------------------------
2|-----------------12-------10---12------
3|--------9------------------------------
4|---10----------------------------------
5|---------------------------------------
6|---------------------------------------
これの繰り返し
最後は
1|------------12-------------------0---
2|-----------------12-------10-----0---
3|--------9------------------------2---
4|---10----------------------------2---
5|---------------------------------0---
6|---------------------------------0---

120 :無名さん:2010/01/30(土) 12:44:39
>>115
追記
Bメロはアコギも同じコードで


こんな感じか
たぶんこれで弾けるはず
またなんかコピーしたら貼るわ

121 :無名さん:2010/01/30(土) 14:13:31
こないだ、ギタボでコックのコピバンしたけど、あーゆーゴー!ってゆう歪みなかなか出せなくて苦労したなぁ

あとはコーラス多用してる気がしました

122 :111:2010/01/30(土) 14:21:31
あ、一部アルペジオ抜けてた
あとで貼る

123 :無名さん:2010/01/30(土) 18:14:49
ありがとう!
早速弾いてみます(^^

>>114
むしは後はアカシックレコーダーと蝶だけでですね〜。
俺は耳コピできないからできる人羨ましいです

124 :無名さん:2010/01/31(日) 01:45:34
うpありがとう

俺の12弦ギターが火を噴くぜ・・・・

125 :無名さん:2010/01/31(日) 05:25:30
足元詳しく!

126 :無名さん:2010/01/31(日) 05:43:56
なんか盛り上がってきたなw

>>113
やっぱディレイとコーラス多いの?
赤きからはフェイザーもか

127 :111:2010/01/31(日) 13:07:03
12弦ギター裏山
>>122で言ったアルペジオだけど、今日の夜ごろ貼れたら貼る
まぁ凄く簡単なとこだから簡単にコピーできるだろうけど

128 :無名さん:2010/01/31(日) 13:26:44
パーフェクトワールドのコードもお願いしていいですか?
あれほとんどメジャーコードで対応できますかね?

あとここはギタリストが多いのかな
ベースやドラムやジャンベって全然いない?

129 :無名さん:2010/01/31(日) 18:27:18
うpありがつお

コックはベースは沢山居そうだ
ドラムやジャンベは居ないかも

130 :111:2010/01/31(日) 18:53:53
>>122 >>127で言ったアルペジオ
「火を祭ってる〜人の影がある〜」の所ね

1|----12-------------------
2|--------------12---------
3|---------14--------------
4|-------------------14----
5|-------------------------
↑は結構押さえにくいから

1|----12-------------------
2|---------10---12---------
3|-------------------9-----
4|-------------------------
異弦同音のも一応貼っとく

131 :111:2010/01/31(日) 18:57:50
ついでに「蝶が一匹」をば

●イントロ

あぁぁぁぁざぁぁぁぁやぁぁぁぁかぁぁぁにぃぃぃぃぃぃぃぃぅさあぁぁぁぁぁぁすぅぅぅぅぅぅぅ

●Aメロ
チャーチャラチャララーラってとこ

1|------------------
2|---10----13-------
3|---10----10-------
4|------------------

1|------------------
2|---9-----10-------
3|---8-----10-------
4|------------------


2番のAメロでは、同じコードでミュートして鳴らす→普通に鳴らす→ミュートして鳴らす→普通に鳴らす
の繰り返し

132 :無名さん:2010/01/31(日) 18:58:56
●サビ

コード
3|---------------------
4|---5-----7-----------
5|---3-----5-----------
6|---------------------


二番サビ終了後
ブリッジミュートで
2|----------------------------------------------------------------
3|---7--7--10--10--7--7--10--10--7--7--10--10--9--9--10--10-------
4|----------------------------------------------------------------

1|----------------------------------------------------------------
2|-----------10--10----------10--10----------10--10--8--8---------
3|---10--10----------10--10----------10--10----------------10--10-
4|----------------------------------------------------------------

3回繰り返し

133 :無名さん:2010/01/31(日) 19:00:26
>>132つづき
1|-------------------------------------------------------------
2|-------------------------------8--8--------------------------
3|---7--7--10--10--9--9--10--10--------10--10--9--9--10--10----
4|-------------------------------------------------------------

1|-----------8--8----------------------------------------------
2|-----------------10--10--8--8------------------------8--8----
3|---10--10----------------------10--10--9--9--10--10----------
4|-------------------------------------------------------------

最後のほうはブリッジミュートはずす
また、ここでもう一本のギターが徐々にブリッジミュートをはずしつつ
3|--------
4|---10---
5|---8----
6|--------
このコードで入ってくる

134 :無名さん:2010/01/31(日) 19:05:04
大サビ?(重力はあまりに〜)

  ┌──M──┐      ┌───M──┐
3|------------------------------------------------------------
4|---7--7-----7--7---------10-10-----10-10-------8---10--8----
5|---5--5-----5--5---------8--8------8--8--------6---8---6----
6|------------------------------------------------------------

  ┌──M──┐      ┌───M──┐
3|------------------------------------------------------------
4|---7--7-----7--7---------10-10-----10-10-------8---10--8----
5|---5--5-----5--5---------8--8------8--8--------6---8---6----
6|------------------------------------------------------------

以上。最後は面倒なので省略
カッティングとか細かいニュアンスは自分でやってくれ

次はユリイカか、>>105のTAB良く聴いたらちょっと違ったので修正もかねてランヒェイでもコピーして貼ろうかな

135 :無名さん:2010/02/01(月) 02:00:40
>>131の「ダダイズム〜」の部分、上下さかさまになってない?
1|------------------
2|---8-----10-------
3|---9-----10-------
4|------------------

だと思うんだが

136 :無名さん:2010/02/01(月) 09:51:28
マジ耳コピ職人すご!
本当お疲れ様です&ありがとうございます

俺もギター買おっと

137 :無名さん:2010/02/01(月) 09:55:46
>>135
本当だorz
訂正サンクス

138 :無名さん:2010/02/01(月) 14:56:44
>>128
パーフェクトワールドコピーした
この曲ギター以外の音がデカくて聞き取りずらかった

●イントロ
C→Am→F→G→C

Aメロもこれでいけるはず

●「天文学者が〜」のとこ
F→G→F→G

●サビ
C→Am→F→G

パーフェクトワールドはどうにも明るすぎてなぁ……ほとんど聞いてない曲だから、どっか間違ってるかも
間違ってたらゴメンね

139 :無名さん:2010/02/01(月) 21:03:40
>>126
ディレイ、コーラス、フェイザーにODとDIS
昔はファズも使ってたけど反対にあってODとDISに戻してた
詳しい機材知りたければ直接本人に聞いてくるわ

140 :無名さん:2010/02/02(火) 09:02:36
みんなすごいな。ギター買ったものの三日で挫折した俺とは違うね

これを機にもっかい挑戦してみようかなー

141 :無名さん:2010/02/03(水) 00:23:26
>>139
知人!?
詳細全部網羅してくれると助かる
ぜひお願いしたい

加藤さんの足元は前劇団のサイトで見たが今見れないし
特に杉さんのはかなり気になる

142 :無名さん:2010/02/03(水) 15:50:55
暫く見ない内に盛り上がってるな
耳コピの人達乙なんだがアイアムベーシスト

143 :無名さん:2010/02/04(木) 10:22:50
本田さんのベースってスティングレイだっけ…スティングレイってアクティブだよな?
あんなパッシブみたいなペコペコした音ってどうやって作ってるんだろう

144 :無名さん:2010/02/04(木) 11:52:18
前川出てきた

145 :無名さん:2010/02/04(木) 19:33:13
>>143
Moonも使ってるっしょ


146 :無名さん:2010/02/07(日) 21:58:58
エフェクター一通り聞いてきた
ワウ踏んでたなんて思いもしなかったよ
詳細は明日書き込みます

147 :無名さん:2010/02/07(日) 22:16:59
そういや虫虫はオートワウ結構使ってるなーと思った
>>146
待ってます

148 :無名さん:2010/02/08(月) 00:26:33
>>146
乙です!

意外だな
告げる声でもほんのり使ってたよね

明日が楽しみだ

149 :無名さん:2010/02/08(月) 20:44:28
EQブートレグ(Deep) ODがMXRのDIS+とOD1
ディレイがBOSSと MAXON(デジタル、アナログ)
フェイザーがCARL MARTIN ワウがVOX
他にもマーシャルのフットスイッチやら。
ギター2本になってからはPODメインだったみたい
貸しっぱなしだったデジテックワーミーとビッグマフが戻ってきた!

150 :無名さん:2010/02/09(火) 01:36:53
>>149
乙!

食人の間奏はワーミーかな?

151 :無名さん:2010/02/15(月) 16:07:48
新しくバンドやってくれるのかな

152 :無名さん:2010/02/16(火) 13:46:05
「罪に軽いも重いもry」とか言う人もいるんだろうけど
正直サクラなんてはめられる方にも非はあるし
大した犯罪じゃないと思う

捕まったのは当然の報いだけど
なによりバンド解散は痛いよな…

まるきり無関係とは言えなくとも
他メンバーの音楽活動まで自粛する必要ないじゃん…

153 :無名さん:2010/02/17(水) 00:23:49
人騙して金貰ってたんだから庇えるような事じゃないだろ
サクラて言うと軽いけどさ

少なくともメンバーは大した事だと判断したからこそ解散になった訳で

154 :無名さん:2010/02/17(水) 10:21:48
つまり多少駆け込みづらい詐欺みたいな位置付けでしょ
軽くはないよ

155 :無名さん:2010/02/17(水) 19:33:45
だが裁く必要性は無いと思うけどね
頭イカれるくらい自己否定していると思うよ

名の知れた人間が犯罪を犯すというのはそれくらいの重みがある

156 :無名さん:2010/02/17(水) 21:15:20
仁平さんみたいな人が俺のそばにもいてくれたら・・・。
前川さんは幸せ者だな。

157 :無名さん:2010/02/18(木) 01:15:05
女の首絞めて捕まったボーカルが一か月しないうちに活動再開したあのバンド
わいせつで捕まったギタリストを脱退させて知らん顔で活動継続してるあのバンド

んで今回は誠実すぎる謝罪と解散

つまりそういうことだ

158 :無名さん:2010/02/18(木) 01:32:41
まぁ好きなバンドが、メンバーが犯罪犯した時ハイゴメンナサイ。謝ったし大した事じゃないからいいでしょ?
みたいな感じだったら多分俺ファンやめるな

159 :無名さん:2010/02/18(木) 10:11:12
大した犯罪じゃないとか言ったけど
>>158の言うとおりとも思った

やっぱりあの人柄だから無限が好きだ
過去は取り戻せないし
結局 解散は仕方ない事なんだな…
ファンなだけに受け止めれる気がする

160 :無名さん:2010/02/18(木) 19:12:42
最初は解散がいやだったけど
今になると前川さん脱退して続けるよりもやもやがなくてよかった
心機一転新しいの聴かせてほしいな
無限もいつか再結成してほしい

161 :無名さん:2010/02/22(月) 02:37:28
博士と蟋蟀とかはもう活動しないの?

162 :無名さん:2010/02/22(月) 12:09:55
どなたか孔子の唄のギター、イントロ部分だけTABお願いできますか…

163 :無名さん:2010/02/22(月) 20:31:16
>>161

メンバー全員、予定していた無限マイナス以外の音楽、表現活動も全て白紙に戻
し自粛させていただきまして反省の日々に費やしていきたいと思います。


って書いてあるからそうじゃない

164 :無名さん:2010/02/23(火) 00:42:52
マジかよ・・

じゃあ全く新しい形で再開してくれんのかな

165 :無名さん:2010/02/28(日) 05:35:36
今後どうなることやら・・・
復帰はいつごろなんだろう

166 :無名さん:2010/03/04(木) 00:03:24
4月24日 新宿ロフト
遠藤仁平だって

167 :無名さん:2010/03/04(木) 02:53:51
http://www.loft-prj.co.jp/LOFT/schedule/loft.cgi?form=2&year=2010&mon=4

まじかい

168 :無名さん:2010/03/04(木) 10:17:21
ソロってこと?

169 :無名さん:2010/03/04(木) 18:39:40
仁平さんは、バーステージでだね。
COCK ROACH・無限マイナス以外の曲もやったりするのかな?

170 :無名さん:2010/03/04(木) 20:09:11
無限の曲はやるのか...?

171 :無名さん:2010/03/04(木) 23:13:29
いつか仁平さんのソロアルバムというのも聞いてみたい
無さそうだが

172 :無名さん:2010/03/05(金) 00:14:57
遠藤紗耶

173 :無名さん:2010/03/12(金) 17:57:35
サヤエンドウか

174 :無名さん:2010/03/13(土) 05:33:09
私なんかカナ・シイナだぞ

175 :無名さん:2010/03/13(土) 06:30:38
よくよく考えたら福美がレア音源になってしまったな

176 :無名さん:2010/03/16(火) 12:27:33
こんな感じでここも過疎っていくのだろうか

177 :無名さん:2010/03/16(火) 13:54:03
別に過疎は今に始まったことじゃない
書きこみ無さすぎて落ちた事もあったし

178 :無名さん:2010/03/17(水) 11:56:26
夢遊旅行コピったので過疎がてら貼る
夢遊旅行はこの三つのコード組み合わせれば弾けるはず

1|---6---
2|---8---
3|---7---
4|---8---
5|---6---
6|---6---
↑はイントロとかの時は、2弦を押さえてる指を離したりすると原曲通りになる

1|---3---
2|---3---
3|---3---
4|---5---
5|---5---
6|---3---

月のむこう〜のとこでは、3弦を5フレットで押さえたり離したり

1|---1---
2|---1---
3|---2---
4|---3---
5|---3---
6|---1---

179 :無名さん:2010/03/17(水) 20:56:02
>>178 乙。

無限ってカポタスト使ってなかったっけ?

180 :178:2010/03/17(水) 21:06:19
ライヴとか行ったことないし分らんのよ
でもこれでとりあえずは弾けた

だれかカポわかる人いないだろうか

181 :無名さん:2010/03/17(水) 21:12:05
死者列車が1フレットに巻いてて、ピックと指を使って弾いてた気がする
夢遊旅行は3フレットに巻いてた覚えが

182 :無名さん:2010/03/17(水) 21:30:51
おお!!サンクス

183 :無名さん:2010/03/29(月) 21:50:16
今年も桜咲いてるのに雪が降ってる所があるみたいだな
そういう景色の中で赤道歩行きいてみたいなぁ

184 :無名さん:2010/03/29(月) 23:14:10
ロリコンきもい死ね

185 :無名さん:2010/03/29(月) 23:46:42
既にそんな景色の中で赤道歩行聴いてた俺は素敵。

186 :184:2010/03/30(火) 01:03:38
ごめんなさい、誤爆してたのに今気付きました。すみません。。

187 :無名さん:2010/03/30(火) 22:47:08
24日豪華だね

188 :無名さん:2010/03/31(水) 12:04:29
福美ってどんな曲?良い?

189 :無名さん:2010/04/01(木) 00:49:04
>>188
今日だけは王子様と呼んでもいいぜ

190 :無名さん:2010/04/01(木) 22:06:46
>>188 特別良くて何度も聴くって感じの曲ではないと思う

福美さん亡くなってしまったのが残念だ

191 :無名さん:2010/04/02(金) 02:56:47
事実として起こった出来事はバックホーンの美しい名前と似てるけど
それをバックホーンとは違う切り口で歌ってるのがおもしろいと思った

右脳夏祭りで聴きながら回復を願った身としては本当に残念だったね

192 :無名さん:2010/04/02(金) 16:37:06
無限が好きで、コックが嫌いって人いんの?

193 :無名さん:2010/04/03(土) 01:12:45
自分は逆です

194 :無名さん:2010/04/03(土) 10:35:42
俺も無限好きくないです。

あとどうでもいいけどROCK COACHっていうバンドが居てビックリした。
どんな音かと思えばロックですらなかった。紛らわしいから解散してほしいっす。

195 :無名さん:2010/04/03(土) 12:14:14
ザ・バッ〇ローチ(笑)といいコックリスナーのバンドメンはみんな名前でリスペクトばっかかよ

196 :無名さん:2010/04/08(木) 04:07:02
やっとau解除きた


197 :無名さん:2010/04/08(木) 04:09:52
定期的に夢の中の散歩オクで探してるけど
見つからないまま1年半の月日が流れた

198 :無名さん:2010/04/08(木) 12:28:35
>>197
おいwつい一週間前にヤフオクで見たぞw
入札迷ってるうちに2000円で落札されたけど

199 :無名さん:2010/04/09(金) 00:31:41
少し前に話題になってた福美って何?
ググったけど分からんかった

200 :無名さん:2010/04/09(金) 09:47:54
福岡美人

201 :無名さん:2010/04/09(金) 12:49:09
福島美術大学

202 :無名さん:2010/04/10(土) 00:00:14
福神漬け、美味しい

203 :無名さん:2010/04/12(月) 06:43:38
>>198
えっ!マジかよwオワタorz
タイミング悪すぎだろ・・・

204 :無名さん:2010/04/16(金) 22:24:32
触角コピーしたんで春

Aメロアルペジオ

1|-------------------------------0------------
2|-------0---------0-----------0------0-------
3|-------------------0-------2-------------2--
4|-----2---------2---------0------------------
5|---3---------3------------------------------
6|--------------------------------------------

1|----------------------------0---------------
2|----------------------0----------0----------
3|-------0----------0-----0-------------0-----
4|-----2----------2---2-----2-----------------
5|---2----------2-----------------------------
6|--------------------------------------------

1|-----------------------------0-------------
2|-------0---------0---------0-----0---------
3|---------------2---------0-----------0-----
4|-----2-------0---------2-------------------
5|---3---------------------------------------
6|-------------------------------------------

1|-------------------------------------------
2|-------0---------0-------------0-----------
3|---------------2-----------0-----0---0-----
4|-----2-------0-----------2---2-----2-------
5|---3-------------------2-------------------
6|-------------------------------------------

205 :無名さん:2010/04/16(金) 22:25:13
Bメロ直前
1|------------------------0------
2|-------0---------0------0------
3|---------------2--------0------
4|-----2-------0----------2------
5|---3--------------------2------
6|------------------------0------


Bメロ「その景色〜」からのところのコードだけど、
この曲はコード鳴らしてるときは全部これ
1|----0----0----0-----
2|----0----0----0-----
3|----0----2----0-----
4|----2----0----2-----
5|----3----0----2-----
6|----0----0----0-----



サビ後カッティングとかのとこ

4|----------------------------------------------------------------------
5|---2-2----5hm-----2-2----5hm-----2-2----5hm------4-4-5-5-7-7-5-5-----
6|---0-0----5hm-----0-0----5hm-----0-0----5hm------2-2-3-3-5-5-3-3-----
                                       └───M───┘

TABのhmはハーモニクス音 └M┘はブリッジミュート

206 :無名さん:2010/04/16(金) 22:30:14
最後のところ

1|-------------------------------------------------------------------------
2|-------------------------------------------------------------------------
3|---------------------------------------------------------------5-4-------
4|-------------------------------------------------------------------5-4---
5|---2-3-5-3-2---------2-3-5-3-2---------2-3-5-3-2---------2-3-5-----------
6|-------------3-2---------------3-2---------------3-2---------------------


1|-------------------------------------------------------------------------
2|-------------------------------------------------------------------------
3|-------------------------------------------------------------------------
4|---4-5-7-5-4---------4-5-7-5-4---------4-5-7-5-4---------4-5-7-5-4-------
5|---2-3-5-3-2-5-4-----2-3-5-3-2-5-4-----2-3-5-3-2-5-4-----2-3-5-3-2-5-4---
6|-------------3-2---------------3-2---------------3-2---------------3--2--

大体合ってるだろうけど、特にアルペジオとかハーモニクスとかは結構アバウトなんで
完コピ目指すなら過信は禁物
細かいところは省いてるんで弾くならそこは各自でやってね
間違ってるとこあったらゴメン

207 :無名さん:2010/04/19(月) 02:25:21
乙!
毎回同じ人なのか?
だとしたら毎度活気づけてくれてすごくありがたいな

てかあとは鴉葬で虫完成だな


まあギターないけど。

208 :無名さん:2010/04/19(月) 22:42:09
>>207
俺結構貼ってるけど全員同一人物ってわけじゃじゃないよ

こうやってTABにしてると自分でも覚えやすくなるし挫折しにくくなるんだよね
どうせ過疎だし、需要あろうが無かろうがコピーしたら貼るわ
迷惑だから貼るなって事になれば別だけど



「鴉葬」

イントロ

4|---------------
5|---2--3--5--3--
6|---0--1--3--1--


Aメロ

3|--------------------------
4|---2----2-2-----3----3-3--
5|---0----0-0-----0----0-0--
6|--------------------------
ブリッジミュートでこれを延々

209 :無名さん:2010/04/19(月) 22:43:00
Bメロ
アルペジオ

1|---------12-------12-------12---
2|------15-------15-------15------
3|--------------------------------
4|---14-------14-------14-------14
5|--------------------------------


1|--------------------------------
2|------10-------10-------10------
3|---10----10-10----10-10----10-10
4|--------------------------------


サビのリフ

3|-----------------------------
4|---2-------------------------
5|---0----2----3----2----3--5--
6|--------0----1----0----1--3--

210 :無名さん:2010/04/19(月) 22:45:51
サビ後

1|---7--8--10----8-------------7--8--10----8-----------10--------
2|--------------------10------------------------10--------10-----
3|-----------------------------------------------------------10--
4|---------------------------------------------------------------

1|-------------------
2|-------11-------9--
3|-------------------
4|---9-9------9-9----
5|-------------------

1|---7--8--10----8-------------7--8--10----8-----------10--------
2|--------------------10------------------------10--------10-----
3|-----------------------------------------------------------10--
4|---------------------------------------------------------------

1|-------------------
2|-------11-------9--
3|-------------------
4|---8-8------8-8----
5|-------------------


「弦の伝いが〜」のとこ

3|---------------------------------------------------
4|---2----2-2-----3----3-3-----2----2-2--------------
5|---0----0-0-----0----0-0-----0----0-0-----2-3-5-3--
6|------------------------------------------0-1-3-1--
  └────────M────────┘

211 :無名さん:2010/04/19(月) 22:49:04
ラストのとこ
3|---------------------------------------------
4|---2---3------2---3------2---3------2-3-5-3--
5|---0---1------0---1------0---1------0-2-3-2--
6|---------------------------------------------

2|-----------------------------
3|------------------4〜〜〜〜--
4|---2----2--2------4〜〜〜〜--
5|---0----0--0------2〜〜〜〜--
6|-----------------------------

1|-------------------------------------------------
2|---13-13-13------12-12-12------8-8-8------6-6-6--
3|-------------------------------------------------

3|------
4|---7--
5|------

以上
この曲一番の難関はBメロの高速アルペジオだな
ベースソロは面倒なので省略
例によって結構アバウトなので完コピ目指すなら注意

212 :無名さん:2010/04/22(木) 16:58:06
バクホン新曲だしたね。

213 :無名さん:2010/04/23(金) 09:58:18
バックホーンなんてもう良い曲出ないんじゃないの?
最近きいてないけど良い曲ある?

214 :無名さん:2010/04/23(金) 12:13:58
昴さん明日のLOFT出るんだね!
誰かと組むのかな?ソロかな?
わかる人いるー?

215 :無名さん:2010/04/23(金) 12:30:53
ベース持ってるさっちゃん可愛い
ttp://blog.goo.ne.jp/me-alart_sushi

216 :無名さん:2010/04/23(金) 18:50:04
>>213
パルスはヘッドフォンチルドレン以降離れってった人が戻ってきたりしたアルバムだから
聞いてみるといいかもよ
ドロドロ系の曲もある

217 :無名さん:2010/04/24(土) 02:18:58
おっ!久しぶりに見たら耳コピとかおもしろい!
俺も記憶の水殿のイントロを耳コピしたんだが載せる

1----0----5----4----0----0----0----0----0----
2----3----3----3----3----0----0----2----0----
3----2----2----2----2----4----2----4----1----
4----0----0----0----0----6----4----4----2----
5----------------------------6----4----0----2----
6----------------------------0----0----0----0----

間違ってたら、誰か修正頼む!イントロだけですまん
需要があれば他にも耳コピしてまた載せるわ

218 :無名さん:2010/04/24(土) 02:38:14
>>217

月風唄挫折したんで、コードだけでもいいからコピー出来たら頼む

219 :無名さん:2010/04/24(土) 06:06:27
兎とか、ユリイカのイントロだけでも耳コピしてほしい。。汗

あ、あと今日、新宿LOFTでジンペイさん出るね

220 :無名さん:2010/04/24(土) 06:07:56
ミールアート30分だけかー

221 :無名さん:2010/04/24(土) 12:30:21
ライブ行く人、レポよろしく。

222 :無名さん:2010/04/24(土) 15:16:11
はーい

223 :無名さん:2010/04/24(土) 18:37:27
>>217じゃないけど

「ユリイカ」
ギターは2本
細かいニュアンスは自分でやってね
間違いあったら訂正してくれるとありがたい

●イントロ

Eギター 1
1|---0----0----0---
2|---3----3----1---
3|---2----2----3---
4|---3----2----2---
5|---0----0----3---
6|---0----0----0---
          ↑
       このコードは鳴らしながら3弦だけチョーキングしてる可能性あり?

ギター 2
1|----------------------g12-----------------------------------------
2|----------10---12------------13----10----12----12-13-15-13-12-----
3|---9----------------------------------------------------------12--
4|------------------------------------------------------------------
5|------------------------------------------------------------------

1|----------------------------------------------
2|---10-----------------------------------------
3|-----------9----------------------12------10--
4|------------------12------10------------------
5|----------------------------------------------
gはグリットサンド

224 :無名さん:2010/04/24(土) 18:38:17
イントロ静かになるとこ

Eギター 1
1|---0--
2|---3--
3|---2--
4|---3--
5|---0--
6|---0--

ギター 2
1|-------------------------
2|-------5---3------5------
3|-------------------------
4|---3------------------3--
5|-------------------------


Eギター 1
1|---0---
2|---3---
3|---2---
4|---2---
5|---0---
6|---0---

ギター 2
1|--------------------------
2|-------5---3------5-------
3|---2------------------2---
4|--------------------------

225 :無名さん:2010/04/24(土) 18:38:58
●Aメロ 

ギター1
1|---0----0---
2|---3----3---
3|---2----2---
4|---3----2---
5|---0----0---
6|---0----0---

ギター2
「関節の音は〜」のとこから
1|---12-12-12----------------------------------------
2|------------10-10-10-10-10-12-12-12----------------
3|------------------------------------9--9--9--9--9--
4|---------------------------------------------------


●Aメロ2

ギター2
「機戒要塞〜」のとこから
1|--------------------------------------------------------5---3-----------------
2|-------5---3------5-------5---3------5-------5---3--------------5---3------5--
3|------------------------------------------------------------------------------
4|---3------------------3------------------3------------------------------------
5|------------------------------------------------------------------------------

1|---------------------------------------------------------------------
2|-------5---3------5-------5---3------5-------5---3-------------------
3|---2------------------2------------------2--------------5---2--4--5--
4|---------------------------------------------------------------------

226 :無名さん:2010/04/24(土) 18:39:50
●サビ

「全てが〜」
3|------------
4|---3---7----
5|---3---7----
6|---1---5----

3|-----------
4|---3---5---
5|---3---5---
6|---1---3---

「赤い翼の〜」
3|--------------
4|---3---5---7--
5|---3---5---7--
6|---1---3---5--

3|---------------5---
4|---3---5---7---5---
5|---3---5---7---3---
6|---1---3---5-------

227 :無名さん:2010/04/24(土) 18:41:01
「月の夜〜
3|------------
4|---3---7----
5|---3---7----
6|---1---5----

3|-----------
4|---3---5---
5|---3---5---
6|---1---3---


ソロは早すぎて耳コピ支援ソフトが必要なレベル
だれかコピーしてくれ……

アウトロも面倒なので省略

コードストロークのとこは一応全弦表記したけど、
特に6弦とかは鳴らして無いと思うから適当に省略すべし

228 :217:2010/04/24(土) 23:16:46
リクがあったので月風唄をうp

イントロ

1-------------161315---------------------151513----13----
2-----15p13h15------16131513--13------s13------1515--1613
3---13----------------------13--12-----------------------

Aメロ

1----3----3----
2----3----3----
3----5----5----
4----6----5----

229 :217:2010/04/24(土) 23:18:40
Aメロ(アルペジオ)

1------------3------------------3-----------
2--------3-----3---3--------3-----3---3-----
3------5---5-----5--------5---5-----5-------
4----6------------------6-------------------

1------------3----------------------4p3------
2--------3-----3---3--------4p3---3-----3----
3------5---5-----5--------------5---------5--
4----5---------------------------------------

サビ

3|-------5----
4|---6---5----
5|---6---3----
6|---4--------

中途半端だがこんなもんでいい?やっつけ仕事なので間違ってたらスマソ

230 :217:2010/04/24(土) 23:38:12
ちなみにme-alの「私が欲しかったもの」のイントロも自信がないが耳コピしてみた
需要があるかわからんがこの曲大好きなんだよね

1-----------9---------9----------------------------
2--------10---------7-------------14---------------
3------11---------7----------1314----1414p13-------
4----11---------9---------s14----------------14----

1-----------9---------7------------------9--------
2--------10---------7----------9-----------9------
3------11---------7---------11---1112-------------
4----12---------9---------11----------13----------

連投すまない。今日のレポ楽しみ!

231 :217:2010/04/24(土) 23:45:58
訂正
以下の方がしっくりくるかも・・・

1-----------9---------9------------9------------
2--------10---------7----------910---1010p9-----
3------11---------7----------9--------------9---
4----11---------9-------------------------------


232 :217:2010/04/24(土) 23:51:37
他にも間違いがあったので・・・
ちょっと首吊りの木にぶら下がってくるorz

1-----------9---------9------------9------------
2--------10---------7----------910---1010p9-----
3------11---------7----------9--------------9---
4----11---------9-------------------------------


1-----------9---------7------------------9--------
2--------10---------7----------9-----------9------
3------11---------7---------11---1110-------------
4----12---------9---------11----------11---------


233 :無名さん:2010/04/25(日) 06:11:15
数字の隣のhとかpとかは何ですか??

234 :無名さん:2010/04/25(日) 09:58:41
昨日のライブどうだったの?

235 :無名さん:2010/04/25(日) 10:58:49
>>228
マジサンクス
これでやっと月風唄弾けるよ

>>233
ハンマリングとプリングだろう

236 :無名さん:2010/04/25(日) 11:15:43
新曲
赤道歩行
悪夢カルピス
百年時計
ランヒェイ

237 :無名さん:2010/04/25(日) 11:44:06
サンクス!!

なんかMCとかなかったの?

238 :無名さん:2010/04/25(日) 12:29:44
仁平さんが、何度も「アチチッ!」
(ステージの前にキャンドルをキャンドルを灯して、それに足を近づけて)
と、やっていたのは笑った。

MCは、「改めて一人になって自分が何が得意か、を考えたら『言葉を人に伝える』
ということで書を書いてほしい人に渡す、ということだったよ。

239 :無名さん:2010/04/25(日) 13:37:34
これから仁平さんはどうするんだろうね。
新曲も気になるわーーー。

240 :無名さん:2010/04/25(日) 19:29:24
新曲どんな曲だった?

241 :無名さん:2010/04/27(火) 09:54:50
>>216
ありがとう、聞いてみるね


ミール人気あるんだね、嬉しいけどちょっとびっくりした
前よりも本人たちが楽しそうだったのが印象に残った


新曲はあまり覚えてないけど仁平さんぽい曲だと思った
静かで(歌い方の問題もあると思うけど)弾き語りのせいかCOCKより無限ぽかったと思う
レポになってなくてごめん、胸が一杯でさ。レポ出来る人いたらよろしく

ちなみに物販で福美のCD売ってたよ
迷惑かわからないけど、どうしても欲しいなら相談したら通販してくれるかも知れないね

仁平さんの書は筆で 華、雪虫、デッドスタートの歌詞とかあった

242 :無名さん:2010/04/27(火) 14:38:40
そのチョイスって仁平さんが気に入ってる詩なのかな

243 :無名さん:2010/04/27(火) 22:15:08
他のメンバーいなくて仁平さんひとりで演奏してたの?

244 :無名さん:2010/04/28(水) 11:42:16
>>242
多分そうじゃないかな、わかんないけど

仁平さん一人、アコギ一本でやってたよ
前の方のお客さんは座ってみてた
みんな静かにききいってる感じで良かった

245 :無名さん:2010/04/28(水) 19:41:40
いい雰囲気だね、やっぱ仕事休んで行けばよかった・・・orz
新曲は「遠藤仁平」としての曲なんだろうか、今後も楽しみ

246 :無名さん:2010/04/28(水) 21:47:33
うん、次の音源はソロとして出そう

247 :無名さん:2010/04/29(木) 04:21:54
また虫虫のコックみたいなのもやってほすい。。。

248 :無名さん:2010/04/29(木) 09:20:54
兎の歌詞教えてください
ただ丸々書くのは違反らしいので、間違ってるところだけ教えてくださいorz

クールで気取った 蒸せ狂う事態に 揺れる地平層
砂埃色の 間に貼られた 熱と 光のセロハンに
よくある景色だ よく似た景色だ
身体 今ここにあるのに
仰向けになって じっと腕を持つ
裂いたり くれたりもせずに

揺れた火を浴びて イキの旗は
争い 命 この星の濁った空気を
エロ色に染めるという エロ色に染めるという

249 :無名さん:2010/04/29(木) 09:36:44
そういう捩って 目隠しされて 塗れた 毒の利は
銜えた羽で 哀れに泳ぐ 黒蛾を 握りつぶすように
何故彼殺す 何故殺される
身体 今ここにあるのに
周りが見えずに 見ていた物は 僕の首をかるウサギ

月光に影伸ばし イキの旗は
命失った者の為だろう
エロ色に染めるという エロ色に染めるという

わずかな光の中 月の上から抜け出して
幾千通りの夜に空翔けるだけ

ああ
空 谷 暮れ この星の無い夜に
ああ
絶え間なく降り注ぎこの空を埋めていく ああ

December, Your lie


エロ色やイキの旗とか確実に間違ってると思いますが、そうとしか聞こえませんorz
よければ教えてください

250 :無名さん:2010/04/29(木) 18:35:35
「クールで気取った」で吹いたww

以下、某所からの転載



暮れた陽だった。ムセ狂う気体に
ユレル地平層、、、
砂と太陽の間に張られた
熱と光のセロハンに
よくある景色だ。よく似た景色だ。
体、今ここにあるのに
仰向けになってじっと夜を待つ
咲いたり枯れたりもせずに

熟れた陽を浴びて石の花は
争い多きこの星の濁った空気を
怨色に染めるという、、、

251 :無名さん:2010/04/29(木) 18:36:26
そういう星にて。目隠しされて
濡れたドクロ岩、、、
喰われた羽で哀れに泳ぐ
黒蛾を握りつぶすように
なぜ殺す。なぜ殺される。
体、今ここにあるのに
まわる満月に見ていたものは
僕の首を狩る兎

月光に影のばし石の花は
命、失ったものの涙を
怨色に染めるという、、、

わずかな光の中
月の円から抜け出して
幾千、星のように空翔ける 兎

その赤い目でこの星の何を見る?
絶え間なく降りそそぎこの空を埋めていく、、、

252 :無名さん:2010/04/30(金) 05:56:22
確かにそう聞こえなくもない>クールで気取った

253 :無名さん:2010/04/30(金) 07:33:39
皆の力でスペシャで「孔子の唄」のPV見ないか?

254 :無名さん:2010/04/30(金) 08:00:00
何それどうすればいいの

255 :無名さん:2010/04/30(金) 19:45:46
ずっと「プールで拾った」だと思ってた

256 :無名さん:2010/05/01(土) 00:44:11
>>254
http://www.spaceshowertv.com/search/request/request.cgi?ch=1&mu=0027389

とりあえず携帯とPCから一票ずつ入れた
孔子の唄はカラオケでしか見れないから手元に保存したい

257 :無名さん:2010/05/06(木) 22:28:30
仁平さんブログ更新しないかな・・。

258 :無名さん:2010/05/07(金) 19:08:15
てか、「とん」行けば仁平さんにあえるの?

259 :無名さん:2010/05/08(土) 12:46:52
とんでもない!

260 :無名さん:2010/05/08(土) 17:08:29
お前がとんでもねぇよw

仁平さんお誕生日おめでとう!

261 :無名さん:2010/05/08(土) 20:59:18
俺も気になってた

店に行くにも遠すぎるからなー

でも会えるんんら行きたいし

あとハピバっす!

262 :無名さん:2010/05/09(日) 11:23:33
仁平さんいくつになったんだ?

263 :無名さん:2010/05/09(日) 16:52:27
仁平さんは79年生まれ

264 :無名さん:2010/05/10(月) 00:46:47
仁平さん5/8生まれだったんだ
あと一日遅ければコックの日だったのに

265 :無名さん:2010/05/10(月) 05:18:26
ってことはゴーヤの日か・・

266 :無名さん:2010/05/11(火) 23:15:45
赤き生命欲の歌詞カード
満開の太陽の下の歌詞に誤植あるね

267 :無名さん:2010/05/12(水) 13:02:52
レイディオだな

268 :無名さん:2010/05/13(木) 01:00:58
今更なにを言っている。

269 :無名さん:2010/05/13(木) 11:21:54
今更なにを言っている。

270 :無名さん:2010/05/13(木) 22:26:18
満開の太陽が告げる

271 :無名さん:2010/05/14(金) 14:27:57
虫はメンバー写真に誤りがあるよね

272 :無名さん:2010/05/15(土) 01:10:37
再発版はな

273 :無名さん:2010/05/16(日) 03:05:59
この流れは青くて〜の誤植を捜す流れ?

274 :無名さん:2010/05/16(日) 12:17:47
違うよ

275 :無名さん:2010/05/16(日) 15:51:55
lets say radio.
lets say radio.
wake up time,hello.

276 :無名さん:2010/05/17(月) 22:52:46
何これ?デモ時代か何かの歌詞?

277 :無名さん:2010/05/17(月) 23:10:42
満開の太陽の下の最後の呪文みたいな部分の空耳だろ
つーかこれ見てからそうとしか聞こえなくなったぞどうしてくれる

278 :無名さん:2010/05/18(火) 01:09:52
新参ェ…

279 :無名さん:2010/05/18(火) 08:51:21
すげぇマジでそう聞こえる
カラオケでどう唱えていいのかわからなかったからこれで歌えば安泰ってことか
ってか新参で何が悪い

280 :無名さん:2010/05/18(火) 10:53:42
古参ファン(笑)ってのはどこにでも沸く
マイナーなバンドなんだからファンはもっと増えてほしのに

281 :無名さん:2010/05/18(火) 11:21:02
聴きすぎて飽きてきたから、むしろ新参に戻りたい
COCKを聴いた時に感じるあの異様なワケの分からない感情をまた味わいたい

282 :無名さん:2010/05/19(水) 12:00:25
冷静な笑みを 冷静な笑みを
うぃ きゃん すたーんど はろー

って俺は歌ってた

283 :無名さん:2010/05/19(水) 18:03:33
ふーん。

284 :無名さん:2010/05/19(水) 19:54:40
wake ups timeの方が近い

285 :無名さん:2010/05/19(水) 21:20:48
あれ本当はなんて言ってるんだろ
どれくらい信用できる情報なのかは知らないけど、
アカシックレコーダーの呪文みたいなのはチベット語らしい?とかどっかで書いてあった

286 :無名さん:2010/05/19(水) 23:49:36
滅せぬ太陽 滅せぬ太陽
Welcome star

何度聞いてもこう聴こえるんだけど





287 :無名さん:2010/05/20(木) 00:12:47
まぁチベット語を土台にした仁平語だろうな

288 :無名さん:2010/05/20(木) 03:01:03
チベット語で満開の太陽の下って言ってるんだよ確か

289 :無名さん:2010/05/20(木) 09:37:26
満開のー
満開のー
太陽のー下ー

ってこと?

290 :無名さん:2010/05/21(金) 11:04:06
離思想真殿羅?もチベットなおん?

291 :無名さん:2010/05/21(金) 21:44:38
りじっそまでらってぇー

292 :無名さん:2010/05/22(土) 14:14:38
雷、降れば、双方


293 :無名さん:2010/05/22(土) 19:20:59
よく考えたら日本に英語歌詞ばかり溢れているのも不自然だよな。

294 :無名さん:2010/05/22(土) 19:51:28
別にそこまで多くないと思うけど、俺も日本人が英語で歌詞書いてるとなんか西欧コンプレックスみたいで好きになれない
音としての綺麗さは英語の方が上だとは思うけどね

295 :無名さん:2010/05/24(月) 09:02:15
久しぶりに虫の別れ見たけどユリイカとコネチカールはライブ映えするなあ

296 :無名さん:2010/05/24(月) 18:29:56
和磨さん亡くなったってマジ!?
http://yaplog.jp/touen/

297 :無名さん:2010/05/24(月) 19:04:50
公式はまだですが、それ読む限りマジみたいですね・・・

298 :無名さん:2010/05/24(月) 19:14:25
なんやねんあいつマジで・・・・そういうのやめーやクソが・・・・・・

299 :無名さん:2010/05/24(月) 20:05:27
もう勘弁してくれよ。
悲しすぎる

300 :無名さん:2010/05/24(月) 21:49:52
勝手にいつかまた無限マイナスの音楽聴けると思ってたんだけども

301 :無名さん:2010/05/24(月) 22:28:27
前川さん、そんな追い詰められてたのかな
なにやってんすかもう…支えてくれる人が沢山いたじゃないっすか

302 :無名さん:2010/05/24(月) 22:50:05
無限の世界を旅行して、また生まれ変わってくれ

303 :無名さん:2010/05/24(月) 23:37:01
今北産業

304 :無名さん:2010/05/25(火) 00:12:08
無限マイナスの
前川さんが
自殺した

305 :無名さん:2010/05/25(火) 00:19:32
リンク先見てもそれらしい事が書いてないんだが
どれだ?

306 :無名さん:2010/05/25(火) 00:46:40
やっぱ消されたのか
公式待ちってとこか

ちなみになんて書いてあった?

307 :無名さん:2010/05/25(火) 01:06:39
別のバンドのブログにも載ってた
前川さんの絵の写真と安らかに眠って欲しいみたいなコメントだった

308 :無名さん:2010/05/25(火) 02:55:17
今日初めて無限マイナスという素晴らしいバンドを
知ったのに、、、とても悲しい。
御冥福お祈り致します。

309 :無名さん:2010/05/25(火) 03:00:19
自殺に至った心境を想像するといたたまれないな
どうか安らかに眠ってほしい・・・

310 :無名さん:2010/05/25(火) 09:19:03
奴の太鼓は神の音がした
あのイントロ太鼓がいつも無限の世界に引きずりこんでくれた

311 :無名さん:2010/05/26(水) 23:38:33
公式mdk

312 :無名さん:2010/05/27(木) 01:39:37
なんかぐちゃぐちゃだなぁ。仁平さんまでいなくなっちゃったらどうしよう…

313 :無名さん:2010/05/27(木) 01:56:24
きっと生きてまた音楽やってくれるよ

つーか俺は直接ソースを確認できてないんだけど亡くなったの確定っぽいのか
俺は夢遊旅行のイントロが好きだったよ

314 :無名さん:2010/05/27(木) 08:38:05
>>313
同じく

逮捕時も安否を気遣っていた仁平さんの心労は計り知れないな

315 :無名さん:2010/05/27(木) 12:28:21
公式のコメント消されてるな どんな思惑なんだろう


316 :無名さん:2010/05/27(木) 16:40:07
まわりから好き勝手言われて、一番つらいのはメンバーでしょ
とりあえずそっとしていてあげようよ

317 :無名さん:2010/05/27(木) 21:01:52
憶測でコメントしたのは悪かったけど
ファンなら心配するさ

デマならデマだと言うべきだし
ホントならホントだと早急に言うべき
何か長文の意見を書く必要は無いからさ

318 :無名さん:2010/05/27(木) 22:32:07
でももうバンド解散してるんだし
バンド側から早急に踏み込んだ話をする義務はないんじゃないだろうか
真実ならなおさら発言が難しい話だと思う
すごくすごく心配してしまうのはわかるけど、待つしかないよ
いまはファン側の心情より前川さん周りの心情を尊重すべきじゃないかな…
遠くないうちにファンのこともちゃんと考えてくれてると信じたい

319 :無名さん:2010/05/27(木) 23:39:36
http://twitter.com/pippinakano/status/14669810483

320 :無名さん:2010/05/27(木) 23:50:35
これはslipknotのことなんじゃ

321 :無名さん:2010/05/28(金) 00:12:47
いつになってもいいけど俺らに向けて話してほしいな その時が来るまで何も考えないでおく

322 :無名さん:2010/05/28(金) 10:22:41
昨日今まで保留してた∞−のCD買った
深夜に死者列車で号泣した やっぱ最高だ

323 :無名さん:2010/05/28(金) 12:30:32
亡くなったのはもうほぼ間違いないでしょ。
キアロスタミのブログにも、そのことについて書いてあった。


324 :無名さん:2010/05/29(土) 06:47:10
>>319
別に恥ずかしがらなくてもいいよ!

325 :無名さん:2010/05/30(日) 01:09:31
今さらだけど、夏の名残り歌ってんのって仁平さん?
声が違いすぎる気がするんだが

326 :無名さん:2010/05/30(日) 01:37:22
>>325
ギターの朝比さん

327 :無名さん:2010/05/30(日) 10:50:40
>>326
サンクス。やっぱり違うんだ
他にも朝比さんがボーカルの曲ってある?

328 :無名さん:2010/05/30(日) 11:46:46
羊飼いだった少年


329 :無名さん:2010/05/30(日) 22:15:21
パーフェクトワールドの方か。そっちは未聴なんだよなー

330 :無名さん:2010/06/02(水) 22:46:05
孤独に輝く石のTABお願いします〜

331 :無名さん:2010/06/03(木) 02:38:12
おっちょうどいまコピろうかと思ってた所だよ

ちょい舞っとれなー

332 :無名さん:2010/06/03(木) 09:07:56
あなたと踊るコネチカール

333 :無名さん:2010/06/04(金) 00:07:25
風に耳を澄ましてで歌ってる女の子は誰?

334 :無名さん:2010/06/04(金) 01:28:08
塁さん

335 :無名さん:2010/06/04(金) 15:52:06
コロ助。

336 :無名さん:2010/06/04(金) 22:01:55
>>333

337 :無名さん:2010/06/06(日) 01:41:51
もし無限マイナスが解散していなかったら、あのブログで今回の自殺騒動を明るめてくれたのだろうなあ。(そもそもあの逮捕がなければ解散はもちろん今回の自殺もなかったわけだが)

もう無限マイナス、ではない以上、あのブログで報告される事はないだろうね。
確かな情報が欲しかったけど。

338 :無名さん:2010/06/06(日) 03:24:33
明るめて?

339 :無名さん:2010/06/06(日) 11:01:27
公に。ってことでしょ
もう解散したグループなんだから発表の義務なんかないだろうね

仁平さんだって言いたくないだろうに、またコメントで色々好き勝手言われるだろうし
ましてやメンバーとはいえ人様の息子だからね、遺族の事も考慮したうえで発表は控えてるんじゃないかな

340 :無名さん:2010/06/06(日) 11:40:37
それか罪を償えと好き勝手吐いた連中に怒りを感じているか

341 :無名さん:2010/06/07(月) 00:52:42
そもそもなんで仁平さんまで批判する奴がいたんだ
個人的にはメンバーまで「責任とれ!」とか言われる必要ないと思うんだけど、思うの俺だけ?

342 :無名さん:2010/06/07(月) 01:07:00
責任取れとか偉そうに言うなんて何様だって話だよな
そりゃ日本には法律ってルールがあるからそれには従わないといけないけどさ

343 :無名さん:2010/06/07(月) 02:22:59
話が大きくなりすぎてただ単に面白がって賑やかしてたやつもいるからな
どっからきたのか知らんが

344 :無名さん:2010/06/07(月) 20:05:27
コメンそんなに批判あったっけ?
残念ってコメントが多かったイメージだけど

345 :無名さん:2010/06/07(月) 21:57:52
あったよ
スレは伸びずに落ちたけど
芸スポにスレ立ってブログのURL貼られてたし
仕方ない

346 :無名さん:2010/06/08(火) 01:07:39
亡くなったのが本当なら仁平さんひどく落ち込んでるんだろうな長い付き合いだったろうし
自殺の要因にはバンド解散への責任感もあっただろうから、バンド組んでなければ…って自分責めてるかもしれん
何もできないけど心配だな。なにも死ななくてよかったのに

347 :無名さん:2010/06/11(金) 07:44:30
これからの仁平さんの活動っていうとどういうのが予想されるのだろうか?

348 :無名さん:2010/06/11(金) 20:20:32
またCOCK ROACHみたいな音楽やってほしいな〜と思う
まぁたぶんソロか何かだね

あと誰か華の歌詞教えてください。。

349 :無名さん:2010/06/12(土) 00:22:24
COCKのファンとしてはバンドの音が聴きたいのが正直なところだよね

350 :無名さん:2010/06/12(土) 20:01:23
コメントで「音楽続けるなんて図々しい」とか言ってる奴らがいたからなぁ…
仁平さん真面目だから今後、人前に出るのを躊躇してしまうんじゃないか心配だ。
まじ煽ってた奴ら許せねぇ

351 :無名さん:2010/06/12(土) 21:11:15
たしかに心配だな、もう表向きには出てきてくれないんじゃないか不安だ

352 :無名さん:2010/06/13(日) 06:25:16
髭の人って自殺?

それとも口止め?

353 :無名さん:2010/06/13(日) 19:34:52
知らねーよカス

354 :無名さん:2010/06/13(日) 21:37:47
口止めって何だ殺されたってことか?どこのサスペンスだよ

355 :無名さん:2010/06/13(日) 22:41:46
火サス

356 :無名さん:2010/06/14(月) 02:06:29
!?

357 :無名さん:2010/06/14(月) 03:08:28
口止め説浮上

358 :無名さん:2010/06/14(月) 14:16:22
実際そういうことってあるよ
バックに組織があってそれが強大であれば尚ね

故に、現実離れしてるっていうのは、実はそれをねこそぎ否定する事態です

まあだからといって前川さんはそういう亡くなり方だと思わないけど。

359 :無名さん:2010/06/14(月) 23:05:06
8月15日に追悼ライブがあるらしい。

360 :無名さん:2010/06/16(水) 05:57:37
終戦記念日か

361 :無名さん:2010/06/17(木) 17:38:11
いーひぃひー

362 :無名さん:2010/06/17(木) 18:19:27
仁平さん今日の一言でした

363 :無名さん:2010/06/19(土) 07:44:13
追悼ライヴマジで?

364 :無名さん:2010/06/19(土) 11:45:14
いーひぃひー

365 :無名さん:2010/06/20(日) 10:54:52
前川さん亡くなったの??

366 :無名さん:2010/06/20(日) 16:44:24
それはほぼ間違いない

367 :無名さん:2010/06/20(日) 20:35:14
そろそろ一ヶ月だな

368 :無名さん:2010/06/21(月) 01:15:36
それもほぼ間違いない

369 :無名さん:2010/06/21(月) 20:27:42
アンダーレイ へぃ

370 :無名さん:2010/06/21(月) 22:02:36
それは違う

371 :無名さん:2010/06/22(火) 23:45:26
いいいいいいいいいいいいいいいいいいいいいいいいいいい

372 :無名さん:2010/06/25(金) 21:14:31
ミール、サマソニにエントリーしてるよ。みんなで投票しよう!

373 :無名さん:2010/06/25(金) 22:54:56
おおお知らなかった、ミールがんばれ

374 :無名さん:2010/06/27(日) 19:08:43
■8月15日(日)
高円寺HIGH
黒虫芸術pre.
「餞詩〜ハナムケウタ〜」

-出演-
遠藤仁平
REDЯUM
me-al art
WRECKingCReW
楽風息


375 :無名さん:2010/06/27(日) 21:20:09
>>374

レッドラム!?

376 :無名さん:2010/06/27(日) 21:58:36
>>374これマジなんだな
レッドラム再結成!?

377 :無名さん:2010/06/28(月) 01:51:40
一夜限りの再結成だと
嬉しいけど複雑だな…

378 :無名さん:2010/07/02(金) 13:49:36
華の歌詞どなたか載せてもらえませんか?

379 :無名さん:2010/07/04(日) 12:34:32
ももいろかすかにーさいたはなよー

380 :無名さん:2010/07/04(日) 21:06:26
はなびらーをーおとしてゆくのだろー。

381 :無名さん:2010/07/04(日) 22:46:22
るっるっるーるるっるっるるっるーるっるっるーるるー
るっるっるーるるっるっるるーるーるっるっるるっるー
るっるっるーるるっるっるるっるーるっるっるーるるー
るっるっるーるるっるっるるーるーるっるっるーるるっるーるるーるーるー

382 :無名さん:2010/07/04(日) 23:58:12
チケット予約のメール送って返信来ないんだけど俺だけ?

383 :無名さん:2010/07/05(月) 17:15:03
ごめん、まだ予約してないから分からない

そいや前川さんって結婚してなかったっけ?

384 :無名さん:2010/07/06(火) 07:13:10
予約した。
返信来たよ。

385 :無名さん:2010/07/06(火) 16:37:31
もしかしてチケットてもう売り切れた?

386 :無名さん:2010/07/06(火) 18:19:50
わかんね

387 :無名さん:2010/07/06(火) 18:21:17
桃色かすかに咲いた華よ
これが最初で最後の色を残し
嵐が過ぎ去るこの街に
華びらを落とすだろう

酔えば酔うほどに去れど去られず
夢現
流れ流されて消える人の影
数あれど

僕は僕であれ
僕は僕であれ
いつまでもこの世がこの世で
ありますように。

388 :無名さん:2010/07/06(火) 18:24:48
イープラスでは終了してたけど無限ブログに載ってるアドレスからはまだ予約できたよ

389 :無名さん:2010/07/06(火) 18:32:44
>>382 俺もメールの返信きましたよー。

390 :無名さん:2010/07/06(火) 18:56:31
話変わるけど、レッドラムのKAZIさんのブログに塁さんが乗ってたね。

なんか安心したわ。

391 :無名さん:2010/07/07(水) 13:29:46
メール予約した場合は当日会場で名前言えばいいの?

392 :無名さん:2010/07/08(木) 10:53:12
左様でございます。
引き換え時間内に名前を伝えるのです。

393 :無名さん:2010/07/08(木) 13:19:45
どうもありがとうございます。

394 :無名さん:2010/07/08(木) 18:03:49
nemuって誰ですか?

395 :無名さん:2010/07/08(木) 21:28:01
キアロスタミのボーカルですかね

396 :無名さん:2010/07/08(木) 23:51:44
ありがとうございます。

397 :無名さん:2010/07/12(月) 21:42:52
静かなる虫達の別れのジャケット(?)の絵って赤道歩行のイメージなのね
今気付いた

398 :無名さん:2010/07/13(火) 14:54:52
いーざなーえー

いざなーえー

399 :無名さん:2010/07/14(水) 18:32:23
餞詞たのしみだなー。

400 :無名さん:2010/07/14(水) 20:25:46
何の報告もなくいきなり餞詩の告知が出たから
ライブの意図を知らずに来る人もいそうな気がする

401 :無名さん:2010/07/15(木) 01:33:43
別にそれならそれでいいじゃん。

というか仁さんは内輪のイベントしか出ないのかな
今回のは仕方ないけど

402 :無名さん:2010/07/15(木) 03:03:00
別にいいんだけど来ていきなり知るとしたらちょっと可哀想だなーと思って
まぁ誰もはっきりは言わないんじゃないかと思うけど…

403 :無名さん:2010/07/15(木) 09:24:53
前川さんが亡くなったってのは、どこにソースがあるの?

404 :無名さん:2010/07/15(木) 17:16:32
もう消された

405 :403:2010/07/16(金) 18:25:53
嘘くせ

406 :無名さん:2010/07/16(金) 20:23:21
ぷっw

407 :403:2010/07/16(金) 20:34:34
煽りが幼稚


ぷっw


ぷっw

408 :無名さん:2010/07/16(金) 21:07:24
なんだ
ただの荒しか

409 :無名さん:2010/07/16(金) 21:13:50
ほんと消えて欲しいねこういうの

410 :無名さん:2010/07/16(金) 21:48:39
他のスレで見てもなんとも思わないけど、ここでこういうヤツ見ると本当に悲しくなる

411 :無名さん:2010/07/17(土) 00:03:53
どこから来たのやら

412 :無名さん:2010/07/17(土) 09:59:28
高円寺highって何人くらい収容できるの?

413 :無名さん:2010/07/17(土) 21:39:30
前川さんとは一体なんだったのか?


414 :無名さん:2010/07/17(土) 22:20:52
What was Maekawasan?

415 :無名さん:2010/07/18(日) 15:57:55
Don't think!
Feel!

(考えるな!感じろ!)

416 :無名さん:2010/07/18(日) 19:07:44
前川さんを感じる……////


いいや不謹慎だ
やめようよ

417 :無名さん:2010/07/18(日) 19:14:27
夢遊旅行のイントロを聞けばいいよ

418 :無名さん:2010/07/19(月) 04:26:34
人が死んだってのにむしろこれでジンペイさんがより良い詞を書いてくれるんじゃないかと期待してしまう

419 :無名さん:2010/07/19(月) 07:17:22
分からないでもないけど、不謹慎なこというなよー。

420 :無名さん:2010/07/22(木) 15:35:36
もんちゃらへっぴ〜もけもけさ〜

421 :無名さん:2010/07/23(金) 20:13:07
グルグルネタやめろww

422 :無名さん:2010/07/23(金) 22:28:59
どっかで見た言葉だと思ったらグルグルかw

423 :無名さん:2010/07/27(火) 01:45:16
モノクロームバタフライが泣ける
曲のほうね

424 :無名さん:2010/07/28(水) 19:30:18
我が色彩無きその羽よ〜


425 :無名さん:2010/07/29(木) 12:23:41
追悼ならcockroachでもよかったじゃないか

426 :無名さん:2010/07/29(木) 19:10:46
>>425
まだこんな事言ってる奴がいるから困る
あんなにキレイに終わったバンドないっての
復活とかしらけるだけだ

427 :無名さん:2010/07/29(木) 19:27:18
追悼と復活は違う
そんなこともわからんか

81 KB
■ このスレッドは過去ログ倉庫に格納されています

★スマホ版★ 掲示板に戻る 全部 前100 次100 最新50

read.cgi ver 05.04.00 2017/10/04 Walang Kapalit ★
FOX ★ DSO(Dynamic Shared Object)